0
SECTION
2
HEADER
0
ENDSEC
0
SECTION
2
TABLES
0
TABLE
2
LTYPE
70
5
0
LTYPE
2
CONTINUOUS
70
0
3
Solid line
72
65
73
0
40
0.0 
0
LTYPE
2
GESTRICHELT
70
0
3
----------
72
65
73
2
40
5.0 
49
4.0
49
-1.0
0
LTYPE
2
PUNKTIERT
70
0
3
..........
72
65
73
2
40
1.2 
49
0.2
49
-1.0
0
LTYPE
2
STRICHPUNKT
70
0
3
_._._._._.
72
65
73
4
40
10.2
49
8.0
49
-1.0
49
0.2
49
-1.0
0
LTYPE
2
STRICHPUNKTPUNKT
70
0
3
_.._.._.._
72
65
73
6
40
11.4
49
8.0
49
-1.0
49
0.2
49
-1.0
49
0.2
49
-1.0
0
LTYPE
2
MILLLINESTYLE1
70
0
3
Mill linestyle 1
72
65
73
2
40
3.000
49
1.000
49
-2.000
0
LTYPE
2
MILLLINESTYLE2
70
0
3
Mill linestyle 2
72
65
73
2
40
5.000
49
1.000
49
-4.000
0
LTYPE
2
MILLLINESTYLE3
70
0
3
Mill linestyle 3
72
65
73
2
40
10.000
49
1.000
49
-9.000
0
LTYPE
2
MILLLINESTYLE4
70
0
3
Mill linestyle 4
72
65
73
2
40
4.000
49
2.000
49
-2.000
0
LTYPE
2
MILLLINESTYLE5
70
0
3
Mill linestyle 5
72
65
73
2
40
5.000
49
4.000
49
-1.000
0
LTYPE
2
MILLLINESTYLE6
70
0
3
Mill linestyle 6
72
65
73
2
40
7.000
49
4.000
49
-3.000
0
LTYPE
2
MILLLINESTYLE7
70
0
3
Mill linestyle 7
72
65
73
2
40
10.000
49
8.000
49
-2.000
0
LTYPE
2
MILLLINESTYLE8
70
0
3
Mill linestyle 8
72
65
73
4
40
25.000
49
20.000
49
-2.000
49
1.000
49
-2.000
0
LTYPE
2
MILLLINESTYLE9
70
0
3
Mill linestyle 9
72
65
73
6
40
30.000
49
20.000
49
-2.000
49
2.000
49
-2.000
49
2.000
49
-2.000
0
LTYPE
2
MILLLINESTYLE10
70
0
3
Mill linestyle 10
72
65
73
8
40
40.000
49
20.000
49
-5.000
49
2.000
49
-2.000
49
2.000
49
-2.000
49
2.000
49
-5.000
0
ENDTAB
0
TABLE
2
LAYER
70
7
0
LAYER
2
Zeichen-Layer
70
0
62
7
6
CONTINUOUS
0
LAYER
2
Hilfslinie-Layer
70
0
62
1
6
CONTINUOUS
0
LAYER
2
Bemassungs-Layer
70
0
62
3
6
CONTINUOUS
0
LAYER
2
Mittelline-Layer
70
0
62
5
6
STRICHPUNKT
0
LAYER
2
Bearbeitungs-Layer
70
0
62
5
6
CONTINUOUS
0
LAYER
2
0
70
0
62
7
6
CONTINUOUS
0
LAYER
2
Administrator
70
0
62
255
6
CONTINUOUS
0
ENDTAB
0
TABLE
2
STYLE
70
1
0
STYLE
2
STANDARD
70
0
40
0.0
41
1.0
50
0.0
71
0
42
0.2
3
txt
4

0
ENDTAB
0
TABLE
2
VIEW
70
0
0
ENDTAB
0
ENDSEC
0
SECTION
2
ENTITIES
0
CIRCLE
8
0
10
98.494507
20
30.001142
40
7.000000
0
LINE
8
0
10
117.994507
20
0.001142
11
1.994507
21
0.001142
0
LINE
8
0
10
1.994507
20
60.001142
11
117.994507
21
60.001142
0
CIRCLE
8
0
10
4.994507
20
55.001142
40
2.000000
0
CIRCLE
8
0
10
114.994507
20
5.001142
40
2.000000
0
CIRCLE
8
0
10
114.994507
20
55.001142
40
2.000000
0
LINE
8
0
10
-0.005493
20
58.001142
11
-0.005493
21
2.001142
0
LINE
8
0
10
119.994507
20
58.001142
11
119.994507
21
2.001142
0
ARC
8
0
10
1.994507
20
58.001142
40
2.000000         
50
90.000000
51
180.000000
0
ARC
8
0
10
1.994507
20
2.001142
40
2.000000         
50
180.000000
51
270.000000
0
ARC
8
0
10
117.994507
20
2.001142
40
2.000000         
50
270.000000
51
360.000000
0
ARC
8
0
10
117.994507
20
58.001142
40
2.000000         
50
0.000000
51
90.000000
0
LINE
8
0
10
22.267034
20
36.846290
11
78.267034
21
36.846290
0
LINE
8
0
10
80.267034
20
34.846290
11
80.267034
21
24.346290
0
LINE
8
0
10
78.267034
20
22.346290
11
22.267034
21
22.346290
0
LINE
8
0
10
20.267034
20
24.346290
11
20.267034
21
34.846290
0
ARC
8
0
10
22.267034
20
34.846290
40
2.000000         
50
90.000000
51
180.000000
0
ARC
8
0
10
22.267034
20
24.346290
40
2.000000         
50
180.000000
51
270.000000
0
ARC
8
0
10
78.267034
20
34.846290
40
2.000000         
50
0.000000
51
90.000000
0
ARC
8
0
10
78.267034
20
24.346290
40
2.000000         
50
270.000000
51
360.000000
0
CIRCLE
8
0
10
87.500706
20
14.506519
40
1.250000
0
CIRCLE
8
0
10
12.500705
20
14.517520
40
1.250000
0
CIRCLE
8
0
10
12.500705
20
45.506520
40
1.250000
0
CIRCLE
8
0
10
87.500706
20
45.506520
40
1.250000
0
CIRCLE
8
0
10
4.994507
20
5.001142
40
2.000000
0
LINE
8
Zeichen-Layer
10
0.000000
20
0.000000
11
120.000000
21
0.000000
0
LINE
8
Zeichen-Layer
10
120.000000
20
0.000000
11
120.000000
21
60.000000
0
LINE
8
Zeichen-Layer
10
120.000000
20
60.000000
11
0.000000
21
60.000000
0
LINE
8
Zeichen-Layer
10
0.000000
20
60.000000
11
0.000000
21
0.000000
0
LINE
8
Mittelline-Layer
10
60.000000
20
-12.000000
11
60.000000
21
72.000000
0
LINE
8
Mittelline-Layer
10
126.000000
20
30.000000
11
-6.000000
21
30.000000
0
LINE
8
Mittelline-Layer
10
-4.005493
20
30.001142
11
123.994507
21
30.001142
0
LINE
8
Mittelline-Layer
10
59.994507
20
70.001142
11
59.994507
21
-9.998858
0
ENDSEC
0
EOF
